  0
SECTION
  2
HEADER
  9
$ACADVER
  1
AC1009
  9
$INSBASE
 10
0.0
 20
0.0
 30
0.0
  9
$EXTMIN
 10
1.0
 20
1.0
 30
0.0
  9
$EXTMAX
 10
5.55
 20
3.975
 30
0.0
  9
$LIMMIN
 10
0.0
 20
0.0
  9
$LIMMAX
 10
12.0
 20
9.0
  9
$ORTHOMODE
 70
     0
  9
$REGENMODE
 70
     1
  9
$FILLMODE
 70
     1
  9
$QTEXTMODE
 70
     0
  9
$MIRRTEXT
 70
     1
  9
$DRAGMODE
 70
     2
  9
$LTSCALE
 40
1.0
  9
$OSMODE
 70
     0
  9
$ATTMODE
 70
     1
  9
$TEXTSIZE
 40
0.1
  9
$TRACEWID
 40
0.05
  9
$TEXTSTYLE
  7
STANDARD
  9
$CLAYER
  8
SILKSCREEN
  9
$CELTYPE
  6
BYLAYER
  9
$CECOLOR
 62
   256
  9
$DIMSCALE
 40
1.0
  9
$DIMASZ
 40
0.18
  9
$DIMEXO
 40
0.0625
  9
$DIMDLI
 40
0.38
  9
$DIMRND
 40
0.0
  9
$DIMDLE
 40
0.0
  9
$DIMEXE
 40
0.18
  9
$DIMTP
 40
0.0
  9
$DIMTM
 40
0.0
  9
$DIMTXT
 40
0.18
  9
$DIMCEN
 40
0.09
  9
$DIMTSZ
 40
0.0
  9
$DIMTOL
 70
     0
  9
$DIMLIM
 70
     0
  9
$DIMTIH
 70
     1
  9
$DIMTOH
 70
     1
  9
$DIMSE1
 70
     0
  9
$DIMSE2
 70
     0
  9
$DIMTAD
 70
     0
  9
$DIMZIN
 70
     0
  9
$DIMBLK
  1

  9
$DIMASO
 70
     1
  9
$DIMSHO
 70
     1
  9
$DIMPOST
  1

  9
$DIMAPOST
  1

  9
$DIMALT
 70
     0
  9
$DIMALTD
 70
     2
  9
$DIMALTF
 40
25.4
  9
$DIMLFAC
 40
1.0
  9
$DIMTOFL
 70
     0
  9
$DIMTVP
 40
0.0
  9
$DIMTIX
 70
     0
  9
$DIMSOXD
 70
     0
  9
$DIMSAH
 70
     0
  9
$DIMBLK1
  1

  9
$DIMBLK2
  1

  9
$DIMSTYLE
  2
*UNNAMED
  9
$DIMCLRD
 70
     0
  9
$DIMCLRE
 70
     0
  9
$DIMCLRT
 70
     0
  9
$DIMTFAC
 40
1.0
  9
$DIMGAP
 40
0.09
  9
$LUNITS
 70
     2
  9
$LUPREC
 70
     4
  9
$SKETCHINC
 40
0.1
  9
$FILLETRAD
 40
0.0
  9
$AUNITS
 70
     0
  9
$AUPREC
 70
     0
  9
$MENU
  1
acad
  9
$ELEVATION
 40
0.0
  9
$PELEVATION
 40
0.0
  9
$THICKNESS
 40
0.0
  9
$LIMCHECK
 70
     0
  9
$BLIPMODE
 70
     1
  9
$CHAMFERA
 40
0.0
  9
$CHAMFERB
 40
0.0
  9
$SKPOLY
 70
     0
  9
$TDCREATE
 40
2449790.954160069
  9
$TDUPDATE
 40
2449792.922634490
  9
$TDINDWG
 40
0.0292840278
  9
$TDUSRTIMER
 40
0.0292840278
  9
$USRTIMER
 70
     1
  9
$ANGBASE
 50
0.0
  9
$ANGDIR
 70
     0
  9
$PDMODE
 70
     0
  9
$PDSIZE
 40
0.0
  9
$PLINEWID
 40
0.012
  9
$COORDS
 70
     1
  9
$SPLFRAME
 70
     0
  9
$SPLINETYPE
 70
     6
  9
$SPLINESEGS
 70
     8
  9
$ATTDIA
 70
     0
  9
$ATTREQ
 70
     1
  9
$HANDLING
 70
     0
  9
$HANDSEED
  5
0
  9
$SURFTAB1
 70
     6
  9
$SURFTAB2
 70
     6
  9
$SURFTYPE
 70
     6
  9
$SURFU
 70
     6
  9
$SURFV
 70
     6
  9
$UCSNAME
  2

  9
$UCSORG
 10
0.0
 20
0.0
 30
0.0
  9
$UCSXDIR
 10
1.0
 20
0.0
 30
0.0
  9
$UCSYDIR
 10
0.0
 20
1.0
 30
0.0
  9
$PUCSNAME
  2

  9
$PUCSORG
 10
0.0
 20
0.0
 30
0.0
  9
$PUCSXDIR
 10
1.0
 20
0.0
 30
0.0
  9
$PUCSYDIR
 10
0.0
 20
1.0
 30
0.0
  9
$USERI1
 70
     0
  9
$USERI2
 70
     0
  9
$USERI3
 70
     0
  9
$USERI4
 70
     0
  9
$USERI5
 70
     0
  9
$USERR1
 40
0.0
  9
$USERR2
 40
0.0
  9
$USERR3
 40
0.0
  9
$USERR4
 40
0.0
  9
$USERR5
 40
0.0
  9
$WORLDVIEW
 70
     1
  9
$SHADEDGE
 70
     3
  9
$SHADEDIF
 70
    70
  9
$TILEMODE
 70
     1
  9
$MAXACTVP
 70
    16
  9
$PINSBASE
 10
0.0
 20
0.0
 30
0.0
  9
$PLIMCHECK
 70
     0
  9
$PEXTMIN
 10
1.000000E+20
 20
1.000000E+20
 30
1.000000E+20
  9
$PEXTMAX
 10
-1.000000E+20
 20
-1.000000E+20
 30
-1.000000E+20
  9
$PLIMMIN
 10
0.0
 20
0.0
  9
$PLIMMAX
 10
12.0
 20
9.0
  9
$UNITMODE
 70
     0
  9
$VISRETAIN
 70
     0
  9
$PLINEGEN
 70
     0
  9
$PSLTSCALE
 70
     1
  9
$TREEDEPTH
 70
  3020
  9
$DWGCODEPAGE
  3
iso8859-1
  0
ENDSEC
  0
SECTION
  2
TABLES
  0
TABLE
  2
VPORT
 70
     2
  0
VPORT
  2
*ACTIVE
 70
     0
 10
0.0
 20
0.0
 11
1.0
 21
1.0
 12
3.070964
 22
2.175
 13
0.0
 23
0.0
 14
0.025
 24
0.025
 15
0.0
 25
0.0
 16
0.0
 26
0.0
 36
1.0
 17
0.0
 27
0.0
 37
0.0
 40
2.95
 41
1.658281
 42
50.0
 43
0.0
 44
0.0
 50
0.0
 51
0.0
 71
     0
 72
   100
 73
     1
 74
     1
 75
     1
 76
     0
 77
     0
 78
     0
  0
ENDTAB
  0
TABLE
  2
LTYPE
 70
     1
  0
LTYPE
  2
CONTINUOUS
 70
    64
  3
Solid line
 72
    65
 73
     0
 40
0.0
  0
ENDTAB
  0
TABLE
  2
LAYER
 70
     7
  0
LAYER
  2
0
 70
    64
 62
     7
  6
CONTINUOUS
  0
LAYER
  2
PADS
 70
    64
 62
    40
  6
CONTINUOUS
  0
LAYER
  2
VIAS
 70
    64
 62
   142
  6
CONTINUOUS
  0
LAYER
  2
LAYER1
 70
    64
 62
    82
  6
CONTINUOUS
  0
LAYER
  2
LAYER2
 70
    64
 62
     1
  6
CONTINUOUS
  0
LAYER
  2
SILKSCREEN
 70
    64
 62
     7
  6
CONTINUOUS
  0
LAYER
  2
OUTLINE
 70
    64
 62
   170
  6
CONTINUOUS
  0
ENDTAB
  0
TABLE
  2
STYLE
 70
     1
  0
STYLE
  2
STANDARD
 70
    64
 40
0.0
 41
1.0
 50
0.0
 71
     0
 42
0.1
  3
txt
  4

  0
ENDTAB
  0
TABLE
  2
VIEW
 70
     0
  0
ENDTAB
  0
TABLE
  2
UCS
 70
     0
  0
ENDTAB
  0
TABLE
  2
APPID
 70
     1
  0
APPID
  2
ACAD
 70
    64
  0
ENDTAB
  0
TABLE
  2
DIMSTYLE
 70
     0
  0
ENDTAB
  0
ENDSEC
  0
SECTION
  2
BLOCKS
  0
BLOCK
  8
0
  2
S60X35
 70
    64
 10
0.0
 20
0.0
 30
0.0
  3
S60X35
  0
LINE
  8
PADS
 10
-0.03
 20
0.03
 30
0.0
 11
0.03
 21
0.03
 31
0.0
  0
LINE
  8
PADS
 10
0.03
 20
0.03
 30
0.0
 11
0.03
 21
-0.03
 31
0.0
  0
LINE
  8
PADS
 10
0.03
 20
-0.03
 30
0.0
 11
-0.03
 21
-0.03
 31
0.0
  0
LINE
  8
PADS
 10
-0.03
 20
-0.03
 30
0.0
 11
-0.03
 21
0.03
 31
0.0
  0
ENDBLK
  8
0
  0
BLOCK
  8
0
  2
R60X35
 70
    64
 10
0.0
 20
0.0
 30
0.0
  3
R60X35
  0
CIRCLE
  8
PADS
 10
0.0
 20
0.0
 30
0.0
 40
0.03
  0
ENDBLK
  8
0
  0
BLOCK
  8
0
  2
R100X65
 70
    64
 10
0.0
 20
0.0
 30
0.0
  3
R100X65
  0
CIRCLE
  8
PADS
 10
0.0
 20
0.0
 30
0.0
 40
0.05
  0
ENDBLK
  8
0
  0
BLOCK
  8
0
  2
S100X65
 70
    64
 10
0.0
 20
0.0
 30
0.0
  3
S100X65
  0
LINE
  8
PADS
 10
-0.05
 20
0.05
 30
0.0
 11
0.05
 21
0.05
 31
0.0
  0
LINE
  8
PADS
 10
0.05
 20
0.05
 30
0.0
 11
0.05
 21
-0.05
 31
0.0
  0
LINE
  8
PADS
 10
0.05
 20
-0.05
 30
0.0
 11
-0.05
 21
-0.05
 31
0.0
  0
LINE
  8
PADS
 10
-0.05
 20
-0.05
 30
0.0
 11
-0.05
 21
0.05
 31
0.0
  0
ENDBLK
  8
0
  0
BLOCK
  8
0
  2
DIP14
 70
    64
 10
0.0
 20
0.0
 30
0.0
  3
DIP14
  0
LINE
  8
SILKSCREEN
 10
0.65
 20
0.25
 30
0.0
 11
-0.05
 21
0.25
 31
0.0
  0
LINE
  8
SILKSCREEN
 10
-0.05
 20
0.05
 30
0.0
 11
0.65
 21
0.05
 31
0.0
  0
INSERT
  8
PADS
  2
R60X35
 10
0.2
 20
0.3
 30
0.0
  0
INSERT
  8
PADS
  2
R60X35
 10
0.2
 20
0.0
 30
0.0
  0
INSERT
  8
PADS
  2
S60X35
 10
0.0
 20
0.0
 30
0.0
  0
INSERT
  8
PADS
  2
R60X35
 10
0.1
 20
0.0
 30
0.0
  0
LINE
  8
SILKSCREEN
 10
-0.05
 20
0.25
 30
0.0
 11
-0.05
 21
0.175
 31
0.0
  0
ARC
  8
SILKSCREEN
 10
-0.05
 20
0.15
 30
0.0
 40
0.025
 50
270.0
 51
90.0
  0
LINE
  8
SILKSCREEN
 10
-0.05
 20
0.05
 30
0.0
 11
-0.05
 21
0.125
 31
0.0
  0
INSERT
  8
PADS
  2
R60X35
 10
0.0
 20
0.3
 30
0.0
  0
INSERT
  8
PADS
  2
R60X35
 10
0.1
 20
0.3
 30
0.0
  0
INSERT
  8
PADS
  2
R60X35
 10
0.4
 20
0.0
 30
0.0
  0
INSERT
  8
PADS
  2
R60X35
 10
0.3
 20
0.0
 30
0.0
  0
INSERT
  8
PADS
  2
R60X35
 10
0.5
 20
0.0
 30
0.0
  0
INSERT
  8
PADS
  2
R60X35
 10
0.6
 20
0.0
 30
0.0
  0
INSERT
  8
PADS
  2
R60X35
 10
0.4
 20
0.3
 30
0.0
  0
INSERT
  8
PADS
  2
R60X35
 10
0.3
 20
0.3
 30
0.0
  0
LINE
  8
SILKSCREEN
 10
0.65
 20
0.05
 30
0.0
 11
0.65
 21
0.25
 31
0.0
  0
INSERT
  8
PADS
  2
R60X35
 10
0.5
 20
0.3
 30
0.0
  0
INSERT
  8
PADS
  2
R60X35
 10
0.6
 20
0.3
 30
0.0
  0
ENDBLK
  8
0
  0
BLOCK
  8
0
  2
DIP16
 70
    64
 10
0.0
 20
0.0
 30
0.0
  3
DIP16
  0
LINE
  8
SILKSCREEN
 10
0.75
 20
0.25
 30
0.0
 11
-0.05
 21
0.25
 31
0.0
  0
LINE
  8
SILKSCREEN
 10
-0.05
 20
0.05
 30
0.0
 11
0.75
 21
0.05
 31
0.0
  0
INSERT
  8
PADS
  2
R60X35
 10
0.7
 20
0.0
 30
0.0
  0
INSERT
  8
PADS
  2
R60X35
 10
0.7
 20
0.3
 30
0.0
  0
INSERT
  8
PADS
  2
R60X35
 10
0.2
 20
0.0
 30
0.0
  0
INSERT
  8
PADS
  2
R60X35
 10
0.2
 20
0.3
 30
0.0
  0
INSERT
  8
PADS
  2
S60X35
 10
0.0
 20
0.0
 30
0.0
  0
INSERT
  8
PADS
  2
R60X35
 10
0.1
 20
0.0
 30
0.0
  0
INSERT
  8
PADS
  2
R60X35
 10
0.0
 20
0.3
 30
0.0
  0
ARC
  8
SILKSCREEN
 10
-0.05
 20
0.15
 30
0.0
 40
0.025
 50
270.0
 51
90.0
  0
LINE
  8
SILKSCREEN
 10
-0.05
 20
0.25
 30
0.0
 11
-0.05
 21
0.175
 31
0.0
  0
LINE
  8
SILKSCREEN
 10
-0.05
 20
0.05
 30
0.0
 11
-0.05
 21
0.125
 31
0.0
  0
INSERT
  8
PADS
  2
R60X35
 10
0.1
 20
0.3
 30
0.0
  0
INSERT
  8
PADS
  2
R60X35
 10
0.3
 20
0.0
 30
0.0
  0
INSERT
  8
PADS
  2
R60X35
 10
0.4
 20
0.0
 30
0.0
  0
INSERT
  8
PADS
  2
R60X35
 10
0.5
 20
0.0
 30
0.0
  0
INSERT
  8
PADS
  2
R60X35
 10
0.6
 20
0.0
 30
0.0
  0
INSERT
  8
PADS
  2
R60X35
 10
0.3
 20
0.3
 30
0.0
  0
INSERT
  8
PADS
  2
R60X35
 10
0.4
 20
0.3
 30
0.0
  0
INSERT
  8
PADS
  2
R60X35
 10
0.5
 20
0.3
 30
0.0
  0
INSERT
  8
PADS
  2
R60X35
 10
0.6
 20
0.3
 30
0.0
  0
LINE
  8
SILKSCREEN
 10
0.75
 20
0.05
 30
0.0
 11
0.75
 21
0.25
 31
0.0
  0
ENDBLK
  8
0
  0
BLOCK
  8
0
  2
FILTCAP
 70
    64
 10
0.0
 20
0.0
 30
0.0
  3
FILTCAP
  0
INSERT
  8
SILKSCREEN
  2
R60X35
 10
0.0
 20
0.0
 30
0.0
  0
LINE
  8
SILKSCREEN
 10
0.25
 20
-0.05
 30
0.0
 11
0.25
 21
0.05
 31
0.0
  0
LINE
  8
SILKSCREEN
 10
0.05
 20
0.05
 30
0.0
 11
0.05
 21
-0.05
 31
0.0
  0
LINE
  8
SILKSCREEN
 10
0.05
 20
-0.05
 30
0.0
 11
0.25
 21
-0.05
 31
0.0
  0
LINE
  8
SILKSCREEN
 10
0.25
 20
0.05
 30
0.0
 11
0.05
 21
0.05
 31
0.0
  0
INSERT
  8
SILKSCREEN
  2
R60X35
 10
0.3
 20
0.0
 30
0.0
  0
ENDBLK
  8
0
  0
BLOCK
  8
0
  2
CONN4
 70
    64
 10
0.0
 20
0.0
 30
0.0
  3
CONN4
  0
LINE
  8
SILKSCREEN
 10
0.475
 20
-0.1
 30
0.0
 11
0.125
 21
-0.1
 31
0.0
  0
LINE
  8
SILKSCREEN
 10
-0.125
 20
0.1
 30
0.0
 11
0.7
 21
0.1
 31
0.0
  0
INSERT
  8
OUTLINE
  2
R100X65
 10
0.4
 20
0.0
 30
0.0
  0
LINE
  8
SILKSCREEN
 10
0.075
 20
-0.1
 30
0.0
 11
-0.125
 21
-0.1
 31
0.0
  0
LINE
  8
SILKSCREEN
 10
-0.225
 20
0.0
 30
0.0
 11
-0.125
 21
0.1
 31
0.0
  0
LINE
  8
SILKSCREEN
 10
-0.125
 20
-0.1
 30
0.0
 11
-0.225
 21
0.0
 31
0.0
  0
INSERT
  8
OUTLINE
  2
R100X65
 10
0.2
 20
0.0
 30
0.0
  0
INSERT
  8
OUTLINE
  2
S100X65
 10
0.0
 20
0.0
 30
0.0
  0
LINE
  8
SILKSCREEN
 10
0.1
 20
-0.075
 30
0.0
 11
0.075
 21
-0.1
 31
0.0
  0
LINE
  8
SILKSCREEN
 10
0.125
 20
-0.1
 30
0.0
 11
0.1
 21
-0.075
 31
0.0
  0
LINE
  8
SILKSCREEN
 10
0.7
 20
-0.1
 30
0.0
 11
0.55
 21
-0.1
 31
0.0
  0
INSERT
  8
OUTLINE
  2
R100X65
 10
0.6
 20
0.0
 30
0.0
  0
LINE
  8
SILKSCREEN
 10
0.525
 20
-0.1
 30
0.0
 11
0.5
 21
-0.075
 31
0.0
  0
LINE
  8
SILKSCREEN
 10
0.5
 20
-0.075
 30
0.0
 11
0.475
 21
-0.1
 31
0.0
  0
LINE
  8
SILKSCREEN
 10
0.55
 20
-0.1
 30
0.0
 11
0.525
 21
-0.1
 31
0.0
  0
LINE
  8
SILKSCREEN
 10
0.7
 20
0.1
 30
0.0
 11
0.7
 21
-0.1
 31
0.0
  0
ENDBLK
  8
0
  0
BLOCK
  8
0
  2
TH125
 70
    64
 10
0.0
 20
0.0
 30
0.0
  3
TH125
  0
CIRCLE
  8
PADS
 10
0.0
 20
0.0
 30
0.0
 40
0.075
  0
ENDBLK
  8
0
  0
BLOCK
  8
0
  2
V50X24
 70
    64
 10
0.0
 20
0.0
 30
0.0
  3
V50X24
  0
CIRCLE
  8
VIAS
 10
0.0
 20
0.0
 30
0.0
 40
0.025
  0
ENDBLK
  8
0
  0
ENDSEC
  0
SECTION
  2
ENTITIES
  0
LINE
  8
OUTLINE
 10
1.0
 20
1.0
 30
0.0
 11
3.0
 21
1.0
 31
0.0
  0
LINE
  8
OUTLINE
 10
3.0
 20
1.0
 30
0.0
 11
3.0
 21
3.0
 31
0.0
  0
LINE
  8
OUTLINE
 10
3.0
 20
3.0
 30
0.0
 11
1.0
 21
3.0
 31
0.0
  0
LINE
  8
OUTLINE
 10
1.0
 20
3.0
 30
0.0
 11
1.0
 21
1.0
 31
0.0
  0
INSERT
  8
OUTLINE
  2
DIP14
 10
1.75
 20
1.7
 30
0.0
  0
INSERT
  8
OUTLINE
  2
DIP16
 10
1.75
 20
2.3
 30
0.0
  0
INSERT
  8
OUTLINE
  2
FILTCAP
 10
1.6
 20
1.7
 30
0.0
 50
90.0
  0
INSERT
  8
OUTLINE
  2
FILTCAP
 10
1.6
 20
2.3
 30
0.0
 50
90.0
  0
INSERT
  8
SILKSCREEN
  2
CONN4
 10
1.725
 20
1.175
 30
0.0
  0
INSERT
  8
PADS
  2
TH125
 10
1.15
 20
2.85
 30
0.0
  0
INSERT
  8
PADS
  2
TH125
 10
1.15
 20
1.15
 30
0.0
  0
INSERT
  8
PADS
  2
TH125
 10
2.85
 20
2.85
 30
0.0
  0
INSERT
  8
PADS
  2
TH125
 10
2.85
 20
1.15
 30
0.0
  0
TRACE
  8
LAYER1
 10
1.7
 20
1.175
 30
0.0
 11
1.75
 21
1.175
 31
0.0
 12
1.7
 22
1.425
 32
0.0
 13
1.75
 23
1.475
 33
0.0
  0
TRACE
  8
LAYER1
 10
1.7
 20
1.425
 30
0.0
 11
1.75
 21
1.475
 31
0.0
 12
1.45
 22
1.425
 32
0.0
 13
1.5
 23
1.475
 33
0.0
  0
TRACE
  8
LAYER1
 10
1.45
 20
1.425
 30
0.0
 11
1.5
 21
1.475
 31
0.0
 12
1.45
 22
2.625
 32
0.0
 13
1.5
 23
2.575
 33
0.0
  0
TRACE
  8
LAYER1
 10
1.45
 20
2.625
 30
0.0
 11
1.5
 21
2.575
 31
0.0
 12
1.6
 22
2.625
 32
0.0
 13
1.6
 23
2.575
 33
0.0
  0
TRACE
  8
LAYER1
 10
1.6
 20
2.625
 30
0.0
 11
1.6
 21
2.575
 31
0.0
 12
1.6
 22
2.625
 32
0.0
 13
1.6
 23
2.575
 33
0.0
  0
TRACE
  8
LAYER1
 10
1.475
 20
2.025
 30
0.0
 11
1.475
 21
1.975
 31
0.0
 12
1.6
 22
2.025
 32
0.0
 13
1.6
 23
1.975
 33
0.0
  0
TRACE
  8
LAYER1
 10
1.6
 20
2.025
 30
0.0
 11
1.6
 21
1.975
 31
0.0
 12
1.75
 22
2.025
 32
0.0
 13
1.75
 23
1.975
 33
0.0
  0
TRACE
  8
LAYER1
 10
1.75
 20
2.575
 30
0.0
 11
1.75
 21
2.625
 31
0.0
 12
1.6
 22
2.575
 32
0.0
 13
1.6
 23
2.625
 33
0.0
  0
TRACE
  8
LAYER1
 10
2.3
 20
1.175
 30
0.0
 11
2.35
 21
1.175
 31
0.0
 12
2.3
 22
1.45
 32
0.0
 13
2.35
 23
1.4
 33
0.0
  0
TRACE
  8
LAYER1
 10
2.3
 20
1.45
 30
0.0
 11
2.35
 21
1.4
 31
0.0
 12
2.325
 22
1.45
 32
0.0
 13
2.375
 23
1.4
 33
0.0
  0
TRACE
  8
LAYER1
 10
2.325
 20
1.45
 30
0.0
 11
2.375
 21
1.4
 31
0.0
 12
2.325
 22
1.725
 32
0.0
 13
2.375
 23
1.675
 33
0.0
  0
TRACE
  8
LAYER1
 10
2.325
 20
1.725
 30
0.0
 11
2.375
 21
1.675
 31
0.0
 12
2.425
 22
1.725
 32
0.0
 13
2.475
 23
1.675
 33
0.0
  0
TRACE
  8
LAYER1
 10
2.425
 20
1.725
 30
0.0
 11
2.475
 21
1.675
 31
0.0
 12
2.425
 22
2.3
 32
0.0
 13
2.475
 23
2.3
 33
0.0
  0
TRACE
  8
LAYER2
 10
1.575
 20
2.3
 30
0.0
 11
1.625
 21
2.3
 31
0.0
 12
1.575
 22
2.425
 32
0.0
 13
1.625
 23
2.375
 33
0.0
  0
TRACE
  8
LAYER2
 10
1.575
 20
2.425
 30
0.0
 11
1.625
 21
2.375
 31
0.0
 12
2.475
 22
2.425
 32
0.0
 13
2.425
 23
2.375
 33
0.0
  0
TRACE
  8
LAYER2
 10
2.475
 20
2.425
 30
0.0
 11
2.425
 21
2.375
 31
0.0
 12
2.475
 22
2.3
 32
0.0
 13
2.425
 23
2.3
 33
0.0
  0
TRACE
  8
LAYER2
 10
1.575
 20
1.7
 30
0.0
 11
1.625
 21
1.7
 31
0.0
 12
1.575
 22
1.825
 32
0.0
 13
1.625
 23
1.775
 33
0.0
  0
TRACE
  8
LAYER2
 10
1.575
 20
1.825
 30
0.0
 11
1.625
 21
1.775
 31
0.0
 12
2.375
 22
1.825
 32
0.0
 13
2.325
 23
1.775
 33
0.0
  0
TRACE
  8
LAYER2
 10
2.375
 20
1.825
 30
0.0
 11
2.325
 21
1.775
 31
0.0
 12
2.375
 22
1.7
 32
0.0
 13
2.325
 23
1.7
 33
0.0
  0
POLYLINE
  8
LAYER1
 66
     1
 10
0.0
 20
0.0
 30
0.0
 40
0.012
 41
0.012
  0
VERTEX
  8
LAYER1
 10
1.75
 20
1.7
 30
0.0
  0
VERTEX
  8
LAYER1
 10
1.75
 20
1.85
 30
0.0
  0
VERTEX
  8
LAYER1
 10
1.8
 20
1.9
 30
0.0
  0
VERTEX
  8
LAYER1
 10
1.8
 20
2.15
 30
0.0
  0
VERTEX
  8
LAYER1
 10
1.75
 20
2.2
 30
0.0
  0
VERTEX
  8
LAYER1
 10
1.75
 20
2.3
 30
0.0
  0
SEQEND
  8
LAYER1
  0
POLYLINE
  8
LAYER1
 66
     1
 10
0.0
 20
0.0
 30
0.0
 40
0.012
 41
0.012
  0
VERTEX
  8
LAYER1
 10
1.85
 20
1.7
 30
0.0
  0
VERTEX
  8
LAYER1
 10
1.85
 20
1.85
 30
0.0
  0
VERTEX
  8
LAYER1
 10
1.9
 20
1.9
 30
0.0
  0
VERTEX
  8
LAYER1
 10
1.9
 20
2.15
 30
0.0
  0
VERTEX
  8
LAYER1
 10
1.85
 20
2.2
 30
0.0
  0
VERTEX
  8
LAYER1
 10
1.85
 20
2.3
 30
0.0
  0
SEQEND
  8
LAYER1
  0
POLYLINE
  8
LAYER1
 66
     1
 10
0.0
 20
0.0
 30
0.0
 40
0.012
 41
0.012
  0
VERTEX
  8
LAYER1
 10
1.95
 20
1.7
 30
0.0
  0
VERTEX
  8
LAYER1
 10
1.95
 20
1.85
 30
0.0
  0
VERTEX
  8
LAYER1
 10
2.0
 20
1.9
 30
0.0
  0
VERTEX
  8
LAYER1
 10
2.0
 20
2.15
 30
0.0
  0
VERTEX
  8
LAYER1
 10
1.95
 20
2.2
 30
0.0
  0
VERTEX
  8
LAYER1
 10
1.95
 20
2.3
 30
0.0
  0
SEQEND
  8
LAYER1
  0
POLYLINE
  8
LAYER1
 66
     1
 10
0.0
 20
0.0
 30
0.0
 40
0.012
 41
0.012
  0
VERTEX
  8
LAYER1
 10
2.05
 20
1.7
 30
0.0
  0
VERTEX
  8
LAYER1
 10
2.05
 20
1.85
 30
0.0
  0
VERTEX
  8
LAYER1
 10
2.1
 20
1.9
 30
0.0
  0
VERTEX
  8
LAYER1
 10
2.1
 20
2.15
 30
0.0
  0
VERTEX
  8
LAYER1
 10
2.05
 20
2.2
 30
0.0
  0
VERTEX
  8
LAYER1
 10
2.05
 20
2.3
 30
0.0
  0
SEQEND
  8
LAYER1
  0
POLYLINE
  8
LAYER1
 66
     1
 10
0.0
 20
0.0
 30
0.0
 40
0.012
 41
0.012
  0
VERTEX
  8
LAYER1
 10
2.15
 20
1.7
 30
0.0
  0
VERTEX
  8
LAYER1
 10
2.15
 20
1.85
 30
0.0
  0
VERTEX
  8
LAYER1
 10
2.2
 20
1.9
 30
0.0
  0
VERTEX
  8
LAYER1
 10
2.2
 20
2.15
 30
0.0
  0
VERTEX
  8
LAYER1
 10
2.15
 20
2.2
 30
0.0
  0
VERTEX
  8
LAYER1
 10
2.15
 20
2.3
 30
0.0
  0
SEQEND
  8
LAYER1
  0
POLYLINE
  8
LAYER1
 66
     1
 10
0.0
 20
0.0
 30
0.0
 40
0.012
 41
0.012
  0
VERTEX
  8
LAYER1
 10
2.25
 20
1.7
 30
0.0
  0
VERTEX
  8
LAYER1
 10
2.25
 20
1.85
 30
0.0
  0
VERTEX
  8
LAYER1
 10
2.3
 20
1.9
 30
0.0
  0
VERTEX
  8
LAYER1
 10
2.3
 20
2.15
 30
0.0
  0
VERTEX
  8
LAYER1
 10
2.25
 20
2.2
 30
0.0
  0
VERTEX
  8
LAYER1
 10
2.25
 20
2.3
 30
0.0
  0
SEQEND
  8
LAYER1
  0
POLYLINE
  8
LAYER1
 66
     1
 10
0.0
 20
0.0
 30
0.0
 40
0.012
 41
0.012
  0
VERTEX
  8
LAYER1
 10
2.45
 20
2.6
 30
0.0
  0
VERTEX
  8
LAYER1
 10
2.55
 20
2.6
 30
0.0
  0
VERTEX
  8
LAYER1
 10
2.55
 20
2.2
 30
0.0
  0
SEQEND
  8
LAYER1
  0
POLYLINE
  8
LAYER1
 66
     1
 10
0.0
 20
0.0
 30
0.0
 40
0.012
 41
0.012
  0
VERTEX
  8
LAYER1
 10
2.35
 20
2.6
 30
0.0
  0
VERTEX
  8
LAYER1
 10
2.35
 20
2.675
 30
0.0
  0
VERTEX
  8
LAYER1
 10
2.6
 20
2.675
 30
0.0
  0
VERTEX
  8
LAYER1
 10
2.6
 20
2.125
 30
0.0
  0
SEQEND
  8
LAYER1
  0
POLYLINE
  8
LAYER1
 66
     1
 10
0.0
 20
0.0
 30
0.0
 40
0.012
 41
0.012
  0
VERTEX
  8
LAYER1
 10
2.25
 20
2.6
 30
0.0
  0
VERTEX
  8
LAYER1
 10
2.25
 20
2.725
 30
0.0
  0
VERTEX
  8
LAYER1
 10
2.65
 20
2.725
 30
0.0
  0
VERTEX
  8
LAYER1
 10
2.65
 20
2.0
 30
0.0
  0
SEQEND
  8
LAYER1
  0
INSERT
  8
VIAS
  2
V50X24
 10
2.65
 20
2.0
 30
0.0
  0
INSERT
  8
VIAS
  2
V50X24
 10
2.6
 20
2.125
 30
0.0
  0
INSERT
  8
VIAS
  2
V50X24
 10
2.55
 20
2.2
 30
0.0
  0
POLYLINE
  8
LAYER2
 66
     1
 10
0.0
 20
0.0
 30
0.0
 40
0.012
 41
0.012
  0
VERTEX
  8
LAYER2
 10
2.55
 20
2.2
 30
0.0
  0
VERTEX
  8
LAYER2
 10
2.15
 20
2.2
 30
0.0
  0
VERTEX
  8
LAYER2
 10
2.15
 20
2.0
 30
0.0
  0
SEQEND
  8
LAYER2
  0
POLYLINE
  8
LAYER2
 66
     1
 10
0.0
 20
0.0
 30
0.0
 40
0.012
 41
0.012
  0
VERTEX
  8
LAYER2
 10
2.6
 20
2.125
 30
0.0
  0
VERTEX
  8
LAYER2
 10
2.25
 20
2.125
 30
0.0
  0
VERTEX
  8
LAYER2
 10
2.25
 20
2.0
 30
0.0
  0
SEQEND
  8
LAYER2
  0
POLYLINE
  8
LAYER2
 66
     1
 10
0.0
 20
0.0
 30
0.0
 40
0.012
 41
0.012
  0
VERTEX
  8
LAYER2
 10
2.65
 20
2.0
 30
0.0
  0
VERTEX
  8
LAYER2
 10
2.35
 20
2.0
 30
0.0
  0
SEQEND
  8
LAYER2
  0
POLYLINE
  8
LAYER2
 66
     1
 10
0.0
 20
0.0
 30
0.0
 40
0.012
 41
0.012
  0
VERTEX
  8
LAYER2
 10
1.925
 20
1.175
 30
0.0
  0
VERTEX
  8
LAYER2
 10
1.925
 20
1.45
 30
0.0
  0
VERTEX
  8
LAYER2
 10
1.45
 20
1.45
 30
0.0
  0
VERTEX
  8
LAYER2
 10
1.45
 20
2.15
 30
0.0
  0
VERTEX
  8
LAYER2
 10
1.95
 20
2.15
 30
0.0
  0
VERTEX
  8
LAYER2
 10
1.95
 20
2.0
 30
0.0
  0
SEQEND
  8
LAYER2
  0
POLYLINE
  8
LAYER2
 66
     1
 10
0.0
 20
0.0
 30
0.0
 40
0.012
 41
0.012
  0
VERTEX
  8
LAYER2
 10
2.125
 20
1.175
 30
0.0
  0
VERTEX
  8
LAYER2
 10
2.125
 20
1.5
 30
0.0
  0
VERTEX
  8
LAYER2
 10
1.525
 20
1.5
 30
0.0
  0
VERTEX
  8
LAYER2
 10
1.525
 20
2.1
 30
0.0
  0
VERTEX
  8
LAYER2
 10
1.85
 20
2.1
 30
0.0
  0
VERTEX
  8
LAYER2
 10
1.85
 20
2.0
 30
0.0
  0
SEQEND
  8
LAYER2
  0
POLYLINE
  8
LAYER2
 66
     1
 10
0.0
 20
0.0
 30
0.0
 40
0.012
 41
0.012
  0
VERTEX
  8
LAYER2
 10
2.05
 20
2.0
 30
0.0
  0
VERTEX
  8
LAYER2
 10
2.05
 20
2.25
 30
0.0
  0
VERTEX
  8
LAYER2
 10
2.35
 20
2.25
 30
0.0
  0
VERTEX
  8
LAYER2
 10
2.35
 20
2.3
 30
0.0
  0
SEQEND
  8
LAYER2
  0
POLYLINE
  8
LAYER2
 66
     1
 10
0.0
 20
0.0
 30
0.0
 40
0.012
 41
0.012
  0
VERTEX
  8
LAYER2
 10
2.45
 20
2.6
 30
0.0
  0
VERTEX
  8
LAYER2
 10
2.45
 20
2.475
 30
0.0
  0
VERTEX
  8
LAYER2
 10
1.85
 20
2.475
 30
0.0
  0
VERTEX
  8
LAYER2
 10
1.85
 20
2.6
 30
0.0
  0
SEQEND
  8
LAYER2
  0
POLYLINE
  8
LAYER2
 66
     1
 10
0.0
 20
0.0
 30
0.0
 40
0.012
 41
0.012
  0
VERTEX
  8
LAYER2
 10
2.35
 20
2.6
 30
0.0
  0
VERTEX
  8
LAYER2
 10
2.35
 20
2.525
 30
0.0
  0
VERTEX
  8
LAYER2
 10
1.95
 20
2.525
 30
0.0
  0
VERTEX
  8
LAYER2
 10
1.95
 20
2.6
 30
0.0
  0
SEQEND
  8
LAYER2
  0
POLYLINE
  8
LAYER2
 66
     1
 10
0.0
 20
0.0
 30
0.0
 40
0.012
 41
0.012
  0
VERTEX
  8
LAYER2
 10
2.05
 20
2.6
 30
0.0
  0
VERTEX
  8
LAYER2
 10
2.25
 20
2.6
 30
0.0
  0
SEQEND
  8
LAYER2
  0
TEXT
  8
SILKSCREEN
 10
2.475
 20
1.125
 30
0.0
 40
0.1
  1
P1
  0
TEXT
  8
SILKSCREEN
 10
1.15
 20
1.616667
 30
0.0
 40
0.1
  1
TEST PCB
 50
90.0
 72
     1
 11
1.15
 21
2.0
 31
0.0
  0
TEXT
  8
SILKSCREEN
 10
1.316667
 20
1.25
 30
0.0
 40
0.1
  1
DESIGNED IN ACAD
 50
90.0
 72
     1
 11
1.316667
 21
2.0
 31
0.0
  0
TEXT
  8
SILKSCREEN
 10
2.625
 20
2.35
 30
0.0
 40
0.1
  1
U2
 50
90.0
  0
TEXT
  8
SILKSCREEN
 10
2.525
 20
1.75
 30
0.0
 40
0.1
  1
U1
 50
90.0
  0
TEXT
  8
SILKSCREEN
 10
1.525
 20
1.75
 30
0.0
 40
0.1
  1
C1
 50
90.0
  0
TEXT
  8
SILKSCREEN
 10
1.525
 20
2.35
 30
0.0
 40
0.1
  1
C2
 50
90.0
  0
ENDSEC
  0
EOF
